Monday, November 3, 2008

Semua Tentang Kita

Semua Tentang Kita(Updated+Goreng)
by PeterPan


one of my favourite song!! ive played this song many times.. learn it by heart and definitely u'll get the rythm of this song.. All the best!! Thats all i can say..



C G
|-------------------------|-------------------------|
|-------------------------|-------------------------|
|-------------------------|-------------------------|
|-----2-----2/3--2-----0--|--------0-------0-----0--|
|--3-----3----------3-----|-----2-----2/3-----3-----|
|-------------------------|--3----------------------|

Am7 Em
|-----------------------|-------------------------|
|-----------1-----------|-----------0------------|
|--------------0-----0--|--------0-----0-----0--|
|-----2-----------2-----|-----2-----------2------|
|--0-----0--------------|------------------------|
|-----------------------|--0---------------------|

F C
|-----------------------|-------------------------|
|-----------1-----------|--------1----------------|
|-----0--------0-----0-|----------------0--------|
|--3-----3--------3----|-----2-----0/2--------0-|
|-----------------------|--3----------------3-----|
|-----------------------|--------------------------|


Am7 G
e-------------------3-|
B-------1----------3--|
G-----0---0---0---0---|
D---2-------2----0----|
A-0-------------2-----|
E--------------3------|


C G Am Em
Waktu terasa semakin berlalu
F C Am G
Tinggalkan cerita tentang kita
C G Am Em
Akan tiada lagi kini tawamu
F C Am G
Tuk hapuskan semua sepi di hati



Chorus:

C G Am7 Em
Ada cerita tentang aku dan dia
F C Am7 G
dan kita bersama saat dulu kala
C G Am7 Em
Ada cerita tentang masa yang indah
F C Am7 G
Saat kita berduka saat kita tertawa


Int.

Goreng..


Verse :
gitar 1 : Seperti intro
gitar 2 : C G Am7 Em F C Am7 G



e-----12-13-12-10-----8-8-10-8-7-----------------------|
B-----------------------------------/10-12-10----------|
G--12----12-12-10---9-----9--8-7-------------12--------|
D-----------------------------------/10----------------|
A------------------------------------------------------|
E------------------------------------------------------|


e----10-12-10-----------10-13-10~---|
B-13----------13-12~-13-------------|
G-----------------------------------|
D-----------------------------------|
A-----------------------------------|
E-----------------------------------|


e-----12-12-13-12-10-10-12-10--8-8-10-8-7-7h8-7---------------------|
B-----------------------------------------------/10-12-10-----------|
G--12-------12-12-10---------9-----------------------------12-------|
D-------------------------------------------------------------------|
A-------------------------------------------------------------------|
E-------------------------------------------------------------------|


e----10-12-10-----------10-13-10~---|
B-13----------13-12~-13-------------|
G-----------------------------------|
D-----------------------------------|
A-----------------------------------|
E-----------------------------------|

C G Am7 Em F C Am7 G


C G Am7 Em
Teringat di saat kita tertawa bersama

F C Am7 G
Ceritakan semua tentang kita


Chorus...



"Apabila hujan turun di tengah padang, kita berlari berteduh di bawah pohon yang rendang; Apabila pohon nan rendang itu tidak dapat meneduhi kita, kita lari pulang ke rumah sendiri; Apabila atap rumah sendiri mulai bocor, kita tukar atap lama dan ganti dengan yang baru" -Mr. Al-

1 comment:

bass said...

hohoho
aku dah semakin terer

Related Posts Plugin for WordPress, Blogger...